ISO-10303-21;
HEADER;
FILE_DESCRIPTION (( 'STEP AP203' ),
    '1' );
FILE_NAME ('Q-SHPHWP-18-1064-M.STEP',
    '2020-12-22T08:58:22',
    ( '' ),
    ( '' ),
    'SwSTEP 2.0',
    'SolidWorks 2020',
    '' );
FILE_SCHEMA (( 'CONFIG_CONTROL_DESIGN' ));
ENDSEC;

DATA;
#1 = FACE_OUTER_BOUND ( 'NONE', #296, .T. ) ;
#2 = CARTESIAN_POINT ( 'NONE',  ( -1.614212418857619014, 0.000000000000000000, 0.000000000000000000 ) ) ;
#3 =( LENGTH_UNIT ( ) NAMED_UNIT ( * ) SI_UNIT ( .MILLI., .METRE. ) );
#4 = DIRECTION ( 'NONE',  ( -1.000000000000000000, -0.000000000000000000, -0.000000000000000000 ) ) ;
#5 = CALENDAR_DATE ( 2020, 22, 12 ) ;
#6 = ADVANCED_FACE ( 'NONE', ( #256 ), #124, .F. ) ;
#7 = COORDINATED_UNIVERSAL_TIME_OFFSET ( 8, 0, .AHEAD. ) ;
#8 = EDGE_CURVE ( 'NONE', #325, #169, #30, .T. ) ;
#9 = ORIENTED_EDGE ( 'NONE', *, *, #70, .F. ) ;
#10 = CARTESIAN_POINT ( 'NONE',  ( 2.999999999999999556, 12.69999999999999929, 0.000000000000000000 ) ) ;
#11 = EDGE_CURVE ( 'NONE', #192, #36, #110, .T. ) ;
#12 = CARTESIAN_POINT ( 'NONE',  ( -3.000000000000000000, 0.000000000000000000, 0.000000000000000000 ) ) ;
#13 = EDGE_LOOP ( 'NONE', ( #116, #330, #328, #240 ) ) ;
#14 = CARTESIAN_POINT ( 'NONE',  ( -3.000000000000000000, 1.555301434917138433E-15, -12.69999999999999929 ) ) ;
#15 = SECURITY_CLASSIFICATION ( '', '', #133 ) ;
#16 = VERTEX_POINT ( 'NONE', #185 ) ;
#17 = DIRECTION ( 'NONE',  ( -1.000000000000000000, 0.000000000000000000, -0.000000000000000000 ) ) ;
#18 = DIRECTION ( 'NONE',  ( 1.000000000000000000, 0.000000000000000000, 0.000000000000000000 ) ) ;
#19 = FACE_OUTER_BOUND ( 'NONE', #195, .T. ) ;
#20 = EDGE_CURVE ( 'NONE', #169, #325, #157, .T. ) ;
#21 = DIRECTION ( 'NONE',  ( 0.000000000000000000, 0.000000000000000000, -1.000000000000000000 ) ) ;
#22 =( NAMED_UNIT ( * ) SI_UNIT ( $, .STERADIAN. ) SOLID_ANGLE_UNIT ( ) );
#23 = ORIENTED_EDGE ( 'NONE', *, *, #206, .F. ) ;
#24 = EDGE_CURVE ( 'NONE', #16, #304, #191, .T. ) ;
#25 = DIRECTION ( 'NONE',  ( 0.000000000000000000, 0.000000000000000000, 1.000000000000000000 ) ) ;
#26 = CARTESIAN_POINT ( 'NONE',  ( -1.614212418857619014, 1.555301434917138433E-15, -12.69999999999999929 ) ) ;
#27 = PERSON ( 'UNSPECIFIED', 'UNSPECIFIED', 'UNSPECIFIED', ('UNSPECIFIED'), ('UNSPECIFIED'), ('UNSPECIFIED') ) ;
#28 = PLANE ( 'NONE',  #59 ) ;
#29 = CIRCLE ( 'NONE', #145, 9.000000000000000000 ) ;
#30 = CIRCLE ( 'NONE', #248, 9.000000000000000000 ) ;
#31 = CARTESIAN_POINT ( 'NONE',  ( 3.000000000000000000, 0.000000000000000000, 0.000000000000000000 ) ) ;
#32 = ORGANIZATION ( 'UNSPECIFIED', 'UNSPECIFIED', '' ) ;
#33 = AXIS2_PLACEMENT_3D ( 'NONE', #2, #335, #149 ) ;
#34 = AXIS2_PLACEMENT_3D ( 'NONE', #74, #310, #278 ) ;
#35 = APPROVAL ( #162, 'UNSPECIFIED' ) ;
#36 = VERTEX_POINT ( 'NONE', #99 ) ;
#37 = EDGE_LOOP ( 'NONE', ( #222, #262 ) ) ;
#38 = CARTESIAN_POINT ( 'NONE',  ( -3.000000000000000000, 1.102182119232617714E-15, -9.000000000000000000 ) ) ;
#39 = ADVANCED_FACE ( 'NONE', ( #306 ), #96, .T. ) ;
#40 = ORIENTED_EDGE ( 'NONE', *, *, #326, .F. ) ;
#41 = FACE_OUTER_BOUND ( 'NONE', #13, .T. ) ;
#42 = VERTEX_POINT ( 'NONE', #276 ) ;
#43 = DIRECTION ( 'NONE',  ( 0.000000000000000000, 0.000000000000000000, 1.000000000000000000 ) ) ;
#44 = AXIS2_PLACEMENT_3D ( 'NONE', #125, #100, #255 ) ;
#45 = ORIENTED_EDGE ( 'NONE', *, *, #126, .F. ) ;
#46 = CIRCLE ( 'NONE', #174, 9.000000000000000000 ) ;
#47 = CARTESIAN_POINT ( 'NONE',  ( 2.999999999999999112, 0.000000000000000000, 9.000000000000000000 ) ) ;
#48 = PLANE ( 'NONE',  #282 ) ;
#49 = FACE_OUTER_BOUND ( 'NONE', #37, .T. ) ;
#50 = DIRECTION ( 'NONE',  ( -1.000000000000000000, -0.000000000000000000, -0.000000000000000000 ) ) ;
#51 = PERSON_AND_ORGANIZATION ( #27, #32 ) ;
#52 = ADVANCED_FACE ( 'NONE', ( #49 ), #28, .F. ) ;
#53 = LOCAL_TIME ( 16, 58, 22.00000000000000000, #7 ) ;
#54 = LINE ( 'NONE', #26, #216 ) ;
#55 = DIRECTION ( 'NONE',  ( 0.000000000000000000, 0.000000000000000000, 1.000000000000000000 ) ) ;
#56 = APPROVAL_STATUS ( 'not_yet_approved' ) ;
#57 = CARTESIAN_POINT ( 'NONE',  ( -3.000000000000000000, 0.000000000000000000, 0.000000000000000000 ) ) ;
#58 = APPROVAL_DATE_TIME ( #164, #35 ) ;
#59 = AXIS2_PLACEMENT_3D ( 'NONE', #127, #78, #21 ) ;
#60 = CARTESIAN_POINT ( 'NONE',  ( -1.614212418857619014, 0.000000000000000000, 12.69999999999999929 ) ) ;
#61 = PLANE ( 'NONE',  #231 ) ;
#62 = ORIENTED_EDGE ( 'NONE', *, *, #259, .T. ) ;
#63 = ADVANCED_FACE ( 'NONE', ( #230 ), #204, .F. ) ;
#64 = CARTESIAN_POINT ( 'NONE',  ( 3.000000000000000000, 1.555301434917138433E-15, -12.69999999999999929 ) ) ;
#65 = ORIENTED_EDGE ( 'NONE', *, *, #214, .T. ) ;
#66 = FACE_BOUND ( 'NONE', #67, .T. ) ;
#67 = EDGE_LOOP ( 'NONE', ( #120, #225 ) ) ;
#68 = CARTESIAN_POINT ( 'NONE',  ( -1.614212418857619014, 1.102182119232617714E-15, -9.000000000000000000 ) ) ;
#69 = EDGE_CURVE ( 'NONE', #304, #16, #298, .T. ) ;
#70 = EDGE_CURVE ( 'NONE', #198, #42, #217, .T. ) ;
#71 = LOCAL_TIME ( 16, 58, 22.00000000000000000, #210 ) ;
#72 = PERSON_AND_ORGANIZATION ( #27, #32 ) ;
#73 = APPLICATION_PROTOCOL_DEFINITION ( 'international standard', 'config_control_design', 1994, #108 ) ;
#74 = CARTESIAN_POINT ( 'NONE',  ( -0.03050000000000057873, 0.000000000000000000, 0.000000000000000000 ) ) ;
#75 = APPROVAL_ROLE ( '' ) ;
#76 = ADVANCED_FACE ( 'NONE', ( #254 ), #234, .T. ) ;
#77 = LOCAL_TIME ( 16, 58, 22.00000000000000000, #80 ) ;
#78 = DIRECTION ( 'NONE',  ( 1.000000000000000000, 0.000000000000000000, 0.000000000000000000 ) ) ;
#79 = DATE_AND_TIME ( #5, #71 ) ;
#80 = COORDINATED_UNIVERSAL_TIME_OFFSET ( 8, 0, .AHEAD. ) ;
#81 = PERSON_AND_ORGANIZATION ( #27, #32 ) ;
#82 = COORDINATED_UNIVERSAL_TIME_OFFSET ( 8, 0, .AHEAD. ) ;
#83 = LINE ( 'NONE', #60, #115 ) ;
#84 = AXIS2_PLACEMENT_3D ( 'NONE', #184, #103, #215 ) ;
#85 = ORIENTED_EDGE ( 'NONE', *, *, #213, .F. ) ;
#86 = EDGE_CURVE ( 'NONE', #42, #198, #197, .T. ) ;
#87 = EDGE_LOOP ( 'NONE', ( #85, #165, #193, #137 ) ) ;
#88 = ORIENTED_EDGE ( 'NONE', *, *, #132, .F. ) ;
#89 = CC_DESIGN_SECURITY_CLASSIFICATION ( #15, ( #251 ) ) ;
#90 = FACE_OUTER_BOUND ( 'NONE', #294, .T. ) ;
#91 = AXIS2_PLACEMENT_3D ( 'NONE', #31, #260, #130 ) ;
#92 = ORIENTED_EDGE ( 'NONE', *, *, #246, .F. ) ;
#93 = CARTESIAN_POINT ( 'NONE',  ( -3.000000000000000000, 0.000000000000000000, 12.69999999999999929 ) ) ;
#94 = EDGE_LOOP ( 'NONE', ( #40, #167, #250, #45 ) ) ;
#95 = CARTESIAN_POINT ( 'NONE',  ( -3.000000000000000000, 9.000000000000000000, 0.000000000000000000 ) ) ;
#96 = CYLINDRICAL_SURFACE ( 'NONE', #333, 12.69999999999999929 ) ;
#97 = DIRECTION ( 'NONE',  ( 0.000000000000000000, 0.000000000000000000, 1.000000000000000000 ) ) ;
#98 = CC_DESIGN_APPROVAL ( #285, ( #299 ) ) ;
#99 = CARTESIAN_POINT ( 'NONE',  ( 2.999999999999999112, 1.102182119232617714E-15, -9.000000000000000000 ) ) ;
#100 = DIRECTION ( 'NONE',  ( 0.000000000000000000, 0.000000000000000000, 1.000000000000000000 ) ) ;
#101 = CARTESIAN_POINT ( 'NONE',  ( -1.614212418857619014, 0.000000000000000000, 0.000000000000000000 ) ) ;
#102 = EDGE_CURVE ( 'NONE', #42, #242, #83, .T. ) ;
#103 = DIRECTION ( 'NONE',  ( -1.000000000000000000, -0.000000000000000000, -0.000000000000000000 ) ) ;
#104 = CALENDAR_DATE ( 2020, 22, 12 ) ;
#105 = APPROVAL_PERSON_ORGANIZATION ( #311, #275, #128 ) ;
#106 = PERSON_AND_ORGANIZATION_ROLE ( 'design_supplier' ) ;
#107 = DATE_TIME_ROLE ( 'classification_date' ) ;
#108 = APPLICATION_CONTEXT ( 'configuration controlled 3d designs of mechanical parts and assemblies' ) ;
#109 = ORIENTED_EDGE ( 'NONE', *, *, #11, .F. ) ;
#110 = CIRCLE ( 'NONE', #308, 9.000000000000000000 ) ;
#111 = DIRECTION ( 'NONE',  ( -1.000000000000000000, -0.000000000000000000, -0.000000000000000000 ) ) ;
#112 = ORIENTED_EDGE ( 'NONE', *, *, #24, .T. ) ;
#113 = VECTOR ( 'NONE', #243, 1000.000000000000000 ) ;
#114 = DIRECTION ( 'NONE',  ( -1.000000000000000000, -0.000000000000000000, -0.000000000000000000 ) ) ;
#115 = VECTOR ( 'NONE', #233, 1000.000000000000000 ) ;
#116 = ORIENTED_EDGE ( 'NONE', *, *, #293, .F. ) ;
#117 = DIRECTION ( 'NONE',  ( -0.000000000000000000, 0.000000000000000000, 1.000000000000000000 ) ) ;
#118 = CYLINDRICAL_SURFACE ( 'NONE', #189, 9.000000000000000000 ) ;
#119 = CC_DESIGN_DATE_AND_TIME_ASSIGNMENT ( #180, #257, ( #299 ) ) ;
#120 = ORIENTED_EDGE ( 'NONE', *, *, #11, .T. ) ;
#121 = PERSON_AND_ORGANIZATION_ROLE ( 'creator' ) ;
#122 = ADVANCED_FACE ( 'NONE', ( #1 ), #48, .F. ) ;
#123 = CARTESIAN_POINT ( 'NONE',  ( 2.999999999999999112, 0.000000000000000000, 0.000000000000000000 ) ) ;
#124 = CYLINDRICAL_SURFACE ( 'NONE', #33, 9.000000000000000000 ) ;
#125 = CARTESIAN_POINT ( 'NONE',  ( 0.000000000000000000, 0.000000000000000000, 0.000000000000000000 ) ) ;
#126 = EDGE_CURVE ( 'NONE', #139, #242, #274, .T. ) ;
#127 = CARTESIAN_POINT ( 'NONE',  ( -0.03050000000000052322, 9.000000000000000000, 0.000000000000000000 ) ) ;
#128 = APPROVAL_ROLE ( '' ) ;
#129 = APPROVAL_PERSON_ORGANIZATION ( #317, #35, #159 ) ;
#130 = DIRECTION ( 'NONE',  ( 0.000000000000000000, 0.000000000000000000, 1.000000000000000000 ) ) ;
#131 = AXIS2_PLACEMENT_3D ( 'NONE', #146, #297, #327 ) ;
#132 = EDGE_CURVE ( 'NONE', #272, #286, #46, .T. ) ;
#133 = SECURITY_CLASSIFICATION_LEVEL ( 'unclassified' ) ;
#134 = CIRCLE ( 'NONE', #318, 12.69999999999999929 ) ;
#135 = CIRCLE ( 'NONE', #131, 9.000000000000000000 ) ;
#136 = ADVANCED_FACE ( 'NONE', ( #41 ), #173, .F. ) ;
#137 = ORIENTED_EDGE ( 'NONE', *, *, #8, .T. ) ;
#138 = DIRECTION ( 'NONE',  ( 0.000000000000000000, 0.000000000000000000, 1.000000000000000000 ) ) ;
#139 = VERTEX_POINT ( 'NONE', #14 ) ;
#140 = LINE ( 'NONE', #68, #113 ) ;
#141 = ADVANCED_FACE ( 'NONE', ( #90 ), #118, .F. ) ;
#142 = ORIENTED_EDGE ( 'NONE', *, *, #20, .F. ) ;
#143 = LINE ( 'NONE', #270, #148 ) ;
#144 = ORIENTED_EDGE ( 'NONE', *, *, #86, .F. ) ;
#145 = AXIS2_PLACEMENT_3D ( 'NONE', #329, #273, #200 ) ;
#146 = CARTESIAN_POINT ( 'NONE',  ( 0.03050000000000106792, 0.000000000000000000, 0.000000000000000000 ) ) ;
#147 = DIRECTION ( 'NONE',  ( 0.000000000000000000, 0.000000000000000000, 1.000000000000000000 ) ) ;
#148 = VECTOR ( 'NONE', #111, 1000.000000000000000 ) ;
#149 = DIRECTION ( 'NONE',  ( 0.000000000000000000, 0.000000000000000000, 1.000000000000000000 ) ) ;
#150 = CARTESIAN_POINT ( 'NONE',  ( 0.03050000000000052322, 9.000000000000000000, 0.000000000000000000 ) ) ;
#151 = DIRECTION ( 'NONE',  ( 0.000000000000000000, 0.000000000000000000, 1.000000000000000000 ) ) ;
#152 = LOCAL_TIME ( 16, 58, 22.00000000000000000, #82 ) ;
#153 = DIRECTION ( 'NONE',  ( 0.000000000000000000, 0.000000000000000000, 1.000000000000000000 ) ) ;
#154 =( NAMED_UNIT ( * ) PLANE_ANGLE_UNIT ( ) SI_UNIT ( $, .RADIAN. ) );
#155 = ADVANCED_FACE ( 'NONE', ( #168, #223 ), #61, .F. ) ;
#156 = CARTESIAN_POINT ( 'NONE',  ( -0.03050000000000057873, 0.000000000000000000, 0.000000000000000000 ) ) ;
#157 = CIRCLE ( 'NONE', #253, 9.000000000000000000 ) ;
#158 = CC_DESIGN_PERSON_AND_ORGANIZATION_ASSIGNMENT ( #51, #252, ( #251 ) ) ;
#159 = APPROVAL_ROLE ( '' ) ;
#160 = ADVANCED_FACE ( 'NONE', ( #19, #66 ), #268, .F. ) ;
#161 = APPROVAL_PERSON_ORGANIZATION ( #205, #285, #75 ) ;
#162 = APPROVAL_STATUS ( 'not_yet_approved' ) ;
#163 = AXIS2_PLACEMENT_3D ( 'NONE', #263, #114, #138 ) ;
#164 = DATE_AND_TIME ( #288, #53 ) ;
#165 = ORIENTED_EDGE ( 'NONE', *, *, #69, .T. ) ;
#166 = DIRECTION ( 'NONE',  ( 0.000000000000000000, 0.000000000000000000, 1.000000000000000000 ) ) ;
#167 = ORIENTED_EDGE ( 'NONE', *, *, #70, .T. ) ;
#168 = FACE_BOUND ( 'NONE', #249, .T. ) ;
#169 = VERTEX_POINT ( 'NONE', #38 ) ;
#170 = EDGE_LOOP ( 'NONE', ( #92, #109, #62, #65 ) ) ;
#171 = DIRECTION ( 'NONE',  ( -1.000000000000000000, -0.000000000000000000, -0.000000000000000000 ) ) ;
#172 = ORIENTED_EDGE ( 'NONE', *, *, #326, .T. ) ;
#173 = CYLINDRICAL_SURFACE ( 'NONE', #163, 9.000000000000000000 ) ;
#174 = AXIS2_PLACEMENT_3D ( 'NONE', #196, #266, #166 ) ;
#175 = DIRECTION ( 'NONE',  ( 0.000000000000000000, 0.000000000000000000, 1.000000000000000000 ) ) ;
#176 = PERSON_AND_ORGANIZATION ( #27, #32 ) ;
#177 = DIRECTION ( 'NONE',  ( -1.000000000000000000, -0.000000000000000000, -0.000000000000000000 ) ) ;
#178 = COORDINATED_UNIVERSAL_TIME_OFFSET ( 8, 0, .AHEAD. ) ;
#179 = CARTESIAN_POINT ( 'NONE',  ( 3.000000000000000000, 0.000000000000000000, 0.000000000000000000 ) ) ;
#180 = DATE_AND_TIME ( #284, #77 ) ;
#181 = PRODUCT_RELATED_PRODUCT_CATEGORY ( 'detail', '', ( #186 ) ) ;
#182 = ADVANCED_BREP_SHAPE_REPRESENTATION ( 'Q-SHPHWP-18-1064-M', ( #316, #44 ), #239 ) ;
#183 = AXIS2_PLACEMENT_3D ( 'NONE', #101, #283, #25 ) ;
#184 = CARTESIAN_POINT ( 'NONE',  ( -1.614212418857619014, 0.000000000000000000, 0.000000000000000000 ) ) ;
#185 = CARTESIAN_POINT ( 'NONE',  ( -0.03050000000000057873, 0.000000000000000000, 9.000000000000000000 ) ) ;
#186 = PRODUCT ( 'Q-SHPHWP-18-1064-M', 'Q-SHPHWP-18-1064-M', '', ( #203 ) ) ;
#187 = DATE_AND_TIME ( #219, #152 ) ;
#188 = LOCAL_TIME ( 16, 58, 22.00000000000000000, #178 ) ;
#189 = AXIS2_PLACEMENT_3D ( 'NONE', #241, #194, #147 ) ;
#190 = SHAPE_DEFINITION_REPRESENTATION ( #220, #182 ) ;
#191 = CIRCLE ( 'NONE', #261, 9.000000000000000000 ) ;
#192 = VERTEX_POINT ( 'NONE', #47 ) ;
#193 = ORIENTED_EDGE ( 'NONE', *, *, #303, .T. ) ;
#194 = DIRECTION ( 'NONE',  ( -1.000000000000000000, -0.000000000000000000, -0.000000000000000000 ) ) ;
#195 = EDGE_LOOP ( 'NONE', ( #144, #9 ) ) ;
#196 = CARTESIAN_POINT ( 'NONE',  ( 0.03050000000000106792, 0.000000000000000000, 0.000000000000000000 ) ) ;
#197 = CIRCLE ( 'NONE', #91, 12.69999999999999929 ) ;
#198 = VERTEX_POINT ( 'NONE', #64 ) ;
#199 = LINE ( 'NONE', #302, #236 ) ;
#200 = DIRECTION ( 'NONE',  ( 0.000000000000000000, 0.000000000000000000, 1.000000000000000000 ) ) ;
#201 = CC_DESIGN_PERSON_AND_ORGANIZATION_ASSIGNMENT ( #72, #287, ( #186 ) ) ;
#202 = CARTESIAN_POINT ( 'NONE',  ( -1.614212418857619014, 0.000000000000000000, 0.000000000000000000 ) ) ;
#203 = MECHANICAL_CONTEXT ( 'NONE', #108, 'mechanical' ) ;
#204 = CYLINDRICAL_SURFACE ( 'NONE', #183, 9.000000000000000000 ) ;
#205 = PERSON_AND_ORGANIZATION ( #27, #32 ) ;
#206 = EDGE_CURVE ( 'NONE', #242, #139, #134, .T. ) ;
#207 = ORIENTED_EDGE ( 'NONE', *, *, #206, .T. ) ;
#208 = APPROVAL_DATE_TIME ( #79, #285 ) ;
#209 = DIRECTION ( 'NONE',  ( 0.000000000000000000, 0.000000000000000000, 1.000000000000000000 ) ) ;
#210 = COORDINATED_UNIVERSAL_TIME_OFFSET ( 8, 0, .AHEAD. ) ;
#211 = CARTESIAN_POINT ( 'NONE',  ( -3.000000000000000000, 0.000000000000000000, 0.000000000000000000 ) ) ;
#212 = APPROVAL_DATE_TIME ( #281, #275 ) ;
#213 = EDGE_CURVE ( 'NONE', #304, #169, #143, .T. ) ;
#214 = EDGE_CURVE ( 'NONE', #286, #272, #135, .T. ) ;
#215 = DIRECTION ( 'NONE',  ( 0.000000000000000000, 0.000000000000000000, 1.000000000000000000 ) ) ;
#216 = VECTOR ( 'NONE', #307, 1000.000000000000000 ) ;
#217 = CIRCLE ( 'NONE', #334, 12.69999999999999929 ) ;
#218 = CC_DESIGN_PERSON_AND_ORGANIZATION_ASSIGNMENT ( #258, #291, ( #15 ) ) ;
#219 = CALENDAR_DATE ( 2020, 22, 12 ) ;
#220 = PRODUCT_DEFINITION_SHAPE ( 'NONE', 'NONE',  #299 ) ;
#221 = ORIENTED_EDGE ( 'NONE', *, *, #214, .F. ) ;
#222 = ORIENTED_EDGE ( 'NONE', *, *, #24, .F. ) ;
#223 = FACE_OUTER_BOUND ( 'NONE', #312, .T. ) ;
#224 = CC_DESIGN_APPROVAL ( #275, ( #251 ) ) ;
#225 = ORIENTED_EDGE ( 'NONE', *, *, #293, .T. ) ;
#226 = DIRECTION ( 'NONE',  ( -0.000000000000000000, 0.000000000000000000, 1.000000000000000000 ) ) ;
#227 = EDGE_LOOP ( 'NONE', ( #267, #172, #23, #244 ) ) ;
#228 = CARTESIAN_POINT ( 'NONE',  ( 0.03050000000000106792, 0.000000000000000000, 9.000000000000000000 ) ) ;
#229 = DIRECTION ( 'NONE',  ( -1.000000000000000000, -0.000000000000000000, -0.000000000000000000 ) ) ;
#230 = FACE_OUTER_BOUND ( 'NONE', #170, .T. ) ;
#231 = AXIS2_PLACEMENT_3D ( 'NONE', #95, #295, #300 ) ;
#232 = UNCERTAINTY_MEASURE_WITH_UNIT (LENGTH_MEASURE( 1.000000000000000082E-05 ), #3, 'distance_accuracy_value', 'NONE');
#233 = DIRECTION ( 'NONE',  ( -1.000000000000000000, -0.000000000000000000, -0.000000000000000000 ) ) ;
#234 = CYLINDRICAL_SURFACE ( 'NONE', #84, 12.69999999999999929 ) ;
#235 = CARTESIAN_POINT ( 'NONE',  ( -0.03050000000000057873, 1.102182119232617714E-15, -9.000000000000000000 ) ) ;
#236 = VECTOR ( 'NONE', #171, 1000.000000000000000 ) ;
#237 = APPLICATION_PROTOCOL_DEFINITION ( 'international standard', 'config_control_design', 1994, #290 ) ;
#238 = CC_DESIGN_PERSON_AND_ORGANIZATION_ASSIGNMENT ( #176, #121, ( #299 ) ) ;
#239 =( GEOMETRIC_REPRESENTATION_CONTEXT ( 3 ) GLOBAL_UNCERTAINTY_ASSIGNED_CONTEXT ( ( #232 ) ) GLOBAL_UNIT_ASSIGNED_CONTEXT ( ( #3, #154, #22 ) ) REPRESENTATION_CONTEXT ( 'NONE', 'WORKASPACE' ) );
#240 = ORIENTED_EDGE ( 'NONE', *, *, #259, .F. ) ;
#241 = CARTESIAN_POINT ( 'NONE',  ( -1.614212418857619014, 0.000000000000000000, 0.000000000000000000 ) ) ;
#242 = VERTEX_POINT ( 'NONE', #93 ) ;
#243 = DIRECTION ( 'NONE',  ( -1.000000000000000000, -0.000000000000000000, -0.000000000000000000 ) ) ;
#244 = ORIENTED_EDGE ( 'NONE', *, *, #102, .F. ) ;
#245 = DIRECTION ( 'NONE',  ( -1.000000000000000000, -0.000000000000000000, -0.000000000000000000 ) ) ;
#246 = EDGE_CURVE ( 'NONE', #36, #272, #140, .T. ) ;
#247 = CARTESIAN_POINT ( 'NONE',  ( 0.03050000000000106792, 1.102182119232617714E-15, -9.000000000000000000 ) ) ;
#248 = AXIS2_PLACEMENT_3D ( 'NONE', #211, #314, #209 ) ;
#249 = EDGE_LOOP ( 'NONE', ( #331, #142 ) ) ;
#250 = ORIENTED_EDGE ( 'NONE', *, *, #102, .T. ) ;
#251 = PRODUCT_DEFINITION_FORMATION_WITH_SPECIFIED_SOURCE ( 'ANY', '', #186, .NOT_KNOWN. ) ;
#252 = PERSON_AND_ORGANIZATION_ROLE ( 'creator' ) ;
#253 = AXIS2_PLACEMENT_3D ( 'NONE', #57, #280, #55 ) ;
#254 = FACE_OUTER_BOUND ( 'NONE', #227, .T. ) ;
#255 = DIRECTION ( 'NONE',  ( 1.000000000000000000, 0.000000000000000000, 0.000000000000000000 ) ) ;
#256 = FACE_OUTER_BOUND ( 'NONE', #87, .T. ) ;
#257 = DATE_TIME_ROLE ( 'creation_date' ) ;
#258 = PERSON_AND_ORGANIZATION ( #27, #32 ) ;
#259 = EDGE_CURVE ( 'NONE', #192, #286, #199, .T. ) ;
#260 = DIRECTION ( 'NONE',  ( -1.000000000000000000, -0.000000000000000000, -0.000000000000000000 ) ) ;
#261 = AXIS2_PLACEMENT_3D ( 'NONE', #156, #18, #313 ) ;
#262 = ORIENTED_EDGE ( 'NONE', *, *, #69, .F. ) ;
#263 = CARTESIAN_POINT ( 'NONE',  ( -1.614212418857619014, 0.000000000000000000, 0.000000000000000000 ) ) ;
#264 = DESIGN_CONTEXT ( 'detailed design', #290, 'design' ) ;
#265 = ORIENTED_EDGE ( 'NONE', *, *, #20, .T. ) ;
#266 = DIRECTION ( 'NONE',  ( -1.000000000000000000, -0.000000000000000000, -0.000000000000000000 ) ) ;
#267 = ORIENTED_EDGE ( 'NONE', *, *, #86, .T. ) ;
#268 = PLANE ( 'NONE',  #309 ) ;
#269 = ORIENTED_EDGE ( 'NONE', *, *, #303, .F. ) ;
#270 = CARTESIAN_POINT ( 'NONE',  ( -1.614212418857619014, 1.102182119232617714E-15, -9.000000000000000000 ) ) ;
#271 = VECTOR ( 'NONE', #279, 1000.000000000000000 ) ;
#272 = VERTEX_POINT ( 'NONE', #247 ) ;
#273 = DIRECTION ( 'NONE',  ( -1.000000000000000000, -0.000000000000000000, -0.000000000000000000 ) ) ;
#274 = CIRCLE ( 'NONE', #320, 12.69999999999999929 ) ;
#275 = APPROVAL ( #56, 'UNSPECIFIED' ) ;
#276 = CARTESIAN_POINT ( 'NONE',  ( 3.000000000000000000, 0.000000000000000000, 12.69999999999999929 ) ) ;
#277 = CARTESIAN_POINT ( 'NONE',  ( -1.614212418857619014, 0.000000000000000000, 9.000000000000000000 ) ) ;
#278 = DIRECTION ( 'NONE',  ( 0.000000000000000000, 0.000000000000000000, -1.000000000000000000 ) ) ;
#279 = DIRECTION ( 'NONE',  ( -1.000000000000000000, -0.000000000000000000, -0.000000000000000000 ) ) ;
#280 = DIRECTION ( 'NONE',  ( -1.000000000000000000, -0.000000000000000000, -0.000000000000000000 ) ) ;
#281 = DATE_AND_TIME ( #104, #188 ) ;
#282 = AXIS2_PLACEMENT_3D ( 'NONE', #150, #323, #117 ) ;
#283 = DIRECTION ( 'NONE',  ( -1.000000000000000000, -0.000000000000000000, -0.000000000000000000 ) ) ;
#284 = CALENDAR_DATE ( 2020, 22, 12 ) ;
#285 = APPROVAL ( #332, 'UNSPECIFIED' ) ;
#286 = VERTEX_POINT ( 'NONE', #228 ) ;
#287 = PERSON_AND_ORGANIZATION_ROLE ( 'design_owner' ) ;
#288 = CALENDAR_DATE ( 2020, 22, 12 ) ;
#289 = CC_DESIGN_PERSON_AND_ORGANIZATION_ASSIGNMENT ( #81, #106, ( #251 ) ) ;
#290 = APPLICATION_CONTEXT ( 'configuration controlled 3d designs of mechanical parts and assemblies' ) ;
#291 = PERSON_AND_ORGANIZATION_ROLE ( 'classification_officer' ) ;
#292 = CC_DESIGN_DATE_AND_TIME_ASSIGNMENT ( #187, #107, ( #15 ) ) ;
#293 = EDGE_CURVE ( 'NONE', #36, #192, #29, .T. ) ;
#294 = EDGE_LOOP ( 'NONE', ( #112, #321, #265, #269 ) ) ;
#295 = DIRECTION ( 'NONE',  ( 1.000000000000000000, 0.000000000000000000, 0.000000000000000000 ) ) ;
#296 = EDGE_LOOP ( 'NONE', ( #221, #88 ) ) ;
#297 = DIRECTION ( 'NONE',  ( -1.000000000000000000, -0.000000000000000000, -0.000000000000000000 ) ) ;
#298 = CIRCLE ( 'NONE', #34, 9.000000000000000000 ) ;
#299 = PRODUCT_DEFINITION ( 'UNKNOWN', '', #251, #264 ) ;
#300 = DIRECTION ( 'NONE',  ( 0.000000000000000000, 0.000000000000000000, -1.000000000000000000 ) ) ;
#301 = ORIENTED_EDGE ( 'NONE', *, *, #126, .T. ) ;
#302 = CARTESIAN_POINT ( 'NONE',  ( -1.614212418857619014, 0.000000000000000000, 9.000000000000000000 ) ) ;
#303 = EDGE_CURVE ( 'NONE', #16, #325, #305, .T. ) ;
#304 = VERTEX_POINT ( 'NONE', #235 ) ;
#305 = LINE ( 'NONE', #277, #271 ) ;
#306 = FACE_OUTER_BOUND ( 'NONE', #94, .T. ) ;
#307 = DIRECTION ( 'NONE',  ( -1.000000000000000000, -0.000000000000000000, -0.000000000000000000 ) ) ;
#308 = AXIS2_PLACEMENT_3D ( 'NONE', #123, #177, #151 ) ;
#309 = AXIS2_PLACEMENT_3D ( 'NONE', #10, #17, #226 ) ;
#310 = DIRECTION ( 'NONE',  ( 1.000000000000000000, 0.000000000000000000, 0.000000000000000000 ) ) ;
#311 = PERSON_AND_ORGANIZATION ( #27, #32 ) ;
#312 = EDGE_LOOP ( 'NONE', ( #207, #301 ) ) ;
#313 = DIRECTION ( 'NONE',  ( 0.000000000000000000, 0.000000000000000000, -1.000000000000000000 ) ) ;
#314 = DIRECTION ( 'NONE',  ( -1.000000000000000000, -0.000000000000000000, -0.000000000000000000 ) ) ;
#315 = CARTESIAN_POINT ( 'NONE',  ( -3.000000000000000000, 0.000000000000000000, 9.000000000000000000 ) ) ;
#316 = MANIFOLD_SOLID_BREP ( 'Ðý×', #324 ) ;
#317 = PERSON_AND_ORGANIZATION ( #27, #32 ) ;
#318 = AXIS2_PLACEMENT_3D ( 'NONE', #12, #229, #97 ) ;
#319 = CC_DESIGN_APPROVAL ( #35, ( #15 ) ) ;
#320 = AXIS2_PLACEMENT_3D ( 'NONE', #322, #245, #43 ) ;
#321 = ORIENTED_EDGE ( 'NONE', *, *, #213, .T. ) ;
#322 = CARTESIAN_POINT ( 'NONE',  ( -3.000000000000000000, 0.000000000000000000, 0.000000000000000000 ) ) ;
#323 = DIRECTION ( 'NONE',  ( -1.000000000000000000, 0.000000000000000000, -0.000000000000000000 ) ) ;
#324 = CLOSED_SHELL ( 'NONE', ( #76, #141, #136, #122, #63, #6, #155, #39, #160, #52 ) ) ;
#325 = VERTEX_POINT ( 'NONE', #315 ) ;
#326 = EDGE_CURVE ( 'NONE', #198, #139, #54, .T. ) ;
#327 = DIRECTION ( 'NONE',  ( 0.000000000000000000, 0.000000000000000000, 1.000000000000000000 ) ) ;
#328 = ORIENTED_EDGE ( 'NONE', *, *, #132, .T. ) ;
#329 = CARTESIAN_POINT ( 'NONE',  ( 2.999999999999999112, 0.000000000000000000, 0.000000000000000000 ) ) ;
#330 = ORIENTED_EDGE ( 'NONE', *, *, #246, .T. ) ;
#331 = ORIENTED_EDGE ( 'NONE', *, *, #8, .F. ) ;
#332 = APPROVAL_STATUS ( 'not_yet_approved' ) ;
#333 = AXIS2_PLACEMENT_3D ( 'NONE', #202, #4, #175 ) ;
#334 = AXIS2_PLACEMENT_3D ( 'NONE', #179, #50, #153 ) ;
#335 = DIRECTION ( 'NONE',  ( -1.000000000000000000, -0.000000000000000000, -0.000000000000000000 ) ) ;
ENDSEC;
END-ISO-10303-21;
